30 de out de 2009

Músicas Cifradas, Solos e Arranjos


Aow!! Violeiros e simpatizantes do nosso Brasil Raíz!

             Estarei postando hoje aqui iniciando nosso blog algumas músicas que não tenho encotrado pela internet, e para aqueles que não conhecerem estas entrem em contato que poderei ajudá-los.
            Faço aqui minha homenagem ao violeiro Chico Lobo, que tive o prazer  a honra de conhecer, sua marca é a felicidade de transmitir as tradições culturais de nossas raízes, como canções, causos, rítmos, crenças e  tudo isso com falas simples que chegam direto no peito de quem curte a nossa cultura. Um Abraço a esse Mestre na Arte da Viola Caipira, Chico Lobo!


Esta música é de domínio público e muito bem adaptada por ele.

REISADO – CHICO LOBO

Afinação Cebolão em “Ré”
Solo sobre a harmonia da introdução.





Ó senhor dono da casa, abre a porta e deixa entrar... Ai, ai, ai...
---------------------------------------------------------------------------
-7- 7- 7- 7- 7- 5- 7- 7- 9- 9- 9- 9- 9- 7- 5-------------------------------
-6- 6- 6- 6- 6- 5- 6- 6- 8- 8- 8- 8- 8- 6- 5----------5- 3- 1-------------

-------------------------------------------------------5- 4- 2-------------
---------------------------------------------------------------------------



Essa bandeira sagrada vem aqui lhe visitar
---------------------------------------------------------------------------
-7- 7- 7- 9- 7- 5- 4- 0- 0- 4- 4- 2- 2- 2- 0-----------------------------------
-7- 7- 7- 8- 7- 5- 3- 0- 0- 3- 3- 1- 1- 1- 0-----------------------------------
-------------------------------------------------------------------------------
-------------------------------------------------------------------------------

-------------------------------------------------------------------------------
-------------------------------------------------------------------------------
-8>7----- 3- 5- 3- ----3>5- 3- 3- 1- 1- 1- 0- 0------------------------------ 
------9- 7- -------5- 4- ------------------------------------------------------
-------------------------------------------------------------------------------

-------------------------------------------------------------------------------

-------------------------------------------------------------------------------
-8>7----- 3- 5- 3- ----3>5- 3- 3- 1- 1- 0------------------------------------
------9- 7- -------5- 4- --------------------2-0------------------------------
-------------------------------------------------------------------------------


 
D            A7                D
Lá vem chegando o Reisado
                 A7        D
Cheio de graça e folia
D7                                                                        G       G F#m Em
Oh senhor dono da casa abre a porta e deixe entrar Ai Ai Ai
              A7          D             A7          D    (A7 D)
Essa bandeira sagrada vem aqui lhe visitar

D            A7          D
Bendito louvado seja
D                A7             D
Pra hoje e sempre o amor
D7                                                      G       G F#m Em
Se essa vida é tirana e causa tamanha dor    Ai Ai Ai
A7                               D      A7                D
Quanto mais se for sozinha a lida do cantador

D                              G                        A
Por isso meus companheiros cantem comigo
                       D
que não canto só 2X

D                                   G             A               D
Pra encontrar em cada rosto um destino bem "mió"

Nenhum comentário:

Postar um comentário